cifras.art.br - cifras e tablaturas de Nando Reis para violão e guitarra


Você está vendo a música Hotel California de Eagles. Quer ver cifras de outros artistas? Use o abecedário abaixo.

ABCDEFGHIJKLMNOPQRSTUVWXYZ0-9Temas e Jingles

Exibindo letra cifrada

Tom: Bm
 
h = Hammer on

p = Pull Off
Intro: 

      E|-------------------------0-3h2-0-2p3--|       E|--------------------------|
      B|---------------2-2p3-2p3--------------|       B|--------------------------|
Bm7   G|--4-4-4h3-3-4-------------------------|   A   G|---4-7-6--4---4-----------|
      D|--------------------------------------|       D|-7----------7---7---------|
      A|--------------------------------------|       A|------------------7h5-5h7-|
      E|--------------------------------------|       E|--------------------------|

       Agora é hora de arrasar. Dedilhe devagar e vá almentando a velocidade, até 
que as notas quase soem como acordes, precisa de muito treino, confira abaixo:

Dedilhe as seguintes notas na seguinte sequencia: 1 2 3 4 5 6 do Em com pestana:
 
E|--------------3--3--3--3--3--3--3--3--3--|
B|--4--4--4--4--2--2--2--2--2--2--2--2--2--|
G|--3--3--3--3--1--1--1--1--1--1--1--1--1--|
D|--2--2--2--2-----------------------------|
A|--1--1--1--1-----------------------------|
E|-----------------------------------------|


Verse
Bm                        F#
On a dark desert highway, cool wind in my hair
A                      E
Warm smell of colitas, rising up through the air
G                         D
Up ahead in the distance, I saw a shimmering light
Em
My head grew heavy and my sight grew dim
F#
I had to stop for the night 
Bm                               F#
There she stood in the doorway,  I heard the mission bell
A                                          E
And I was thinking to myself this could be heaven or this could be hell
G                        D
Then she lit up a candle, and she showed me the way
Em                                   F#
There were voices down the corridor, I thought I heard them say: Chorus
G                           D    [Fill 1] 
Welcome to the Hotel California
       F#                                            Bm [Fill 2]
Such a lovely place... such a lovely place... such a lovely face
G                                  D   [Fill 3]
Plenty of room at the Hotel California
    Em                                          F#
Any time of year... any time of year... you can find it here 

Fill 1
E|--------------------------------------------------------+
B|10-12-10-12/14-12-10------------------------------------|
G|11-12-11-12/14-12-11------------------------------------|
D|--------------------------------------------------------|
A|--------------------------------------------------------|
E|--------------------------------------------------------+ 

Fill 2
E|--------------------------------------------------------+
B|--------------------------------------------------------|
G|--------------------------------------------------------|
D|----------0---0--2-4------------------------------------|
A|2~~~-4~~~-----------------------------------------------|
E|--------------------------------------------------------+ 

Fill 3
E|----------------------7-5-------------------------------+
B|-15----15----15----8--8-7-------------------------------|
G|-14h16-14h16-16\-7--------------------------------------|
D|--------------------------------------------------------|
A|--------------------------------------------------------|
E|--------------------------------------------------------+ 

Verse
Bm                           F#
Her mind is Tiffany twisted, she got the Mercedes benz, uh!
A                                    E
She got a lot of pretty, pretty boys that she calls friends
G                                D
How they dance in the courtyard, sweet summer sweat
Em                      F#
Some dance to remember, some dance to forget 
Bm                          F#
So I called up the captain, "Please bring me my wine," he said
A                                      E
"We haven't had that spirit here since nineteen sixty-nine"
G                                       D
And still those voices are calling from far away
Em                                      F#
Wake you up in the middle of the night, just to hear them say Chorus
G                           D    [Fill 4]
Welcome to the Hotel California
       F#                                            Bm [Fill 2]
Such a lovely place... such a lovely place... such a lovely face
G                               D   [Fill 5]
Livin it up at the Hotel California
       Em                                                  F#
What a nice surprise... what a nice surprise... bring your alibis 

Fill 4
E|-10--------------------10-------------------------------+
B|--------------------10----------------------------------|
G|----9b-r-7----9b-r--------------------------------------|
D|-----------7--------------------------------------------|
A|--------------------------------------------------------|
E|--------------------------------------------------------+ 

Fill 5
E|-----22-22----------------------------------------------+
B|-22b-------22b-r19--------------------------------------|
G|--------------------21b~~--21~~~------------------------|
D|--------------------------------------------------------|
A|--------------------------------------------------------|
E|--------------------------------------------------------+ 

Verse
Bm                      F#
Mirrors on the ceiling, the pink champagne on ice, and she said,
A                                E
"We are all just prisoners here, of our own device"
G                             D
And in the master's chambers, they gathered for the feast
Em                                              F#
They stab it with their steely knives, but they just can't kill the beast 
Bm                     F#
Last thing I remember, I was running for the door
A                                     E
I had to find the passage back to the place I was before
G                                  D
"Relax" said the nightman, "We are programmed to receive"
Em                                   F#
"You can check out anytime you like, but you can never leave" 

Solo
E|--------------------------------------------------------+
B|----10h12-12b---10-12-----------7-----------------------|
G|/11-------------------9~~~--7h9---7---------------------|
D|------------------------------------8~~~--7h9p7-7~~~~---|
A|--------------------------------------------------------|
E|--------------------------------------------------------+ 

E|------------------------------------------10------------+
B|--------------------------------------10b----10r-7h10-8b|
G|7h9/11-7-----------7h9/11-7-----------------------------|
D|---------9p7h9~~~-----------9p7h9~~~--------------------|
A|--------------------------------------------------------|
E|--------------------------------------------------------+ 

E|10b-10-10b-7----10--------------10----------------------+
B|-------------10b--10r-8-10-8----------------------------|
G|-----------------------------9b----9-9r-7---7\6-7~~~----|
D|------------------------------------------7-------------|
A|--------------------------------------------------------|
E|--------------------------------------------------------+ 

E|----------------------------------------------7---------+
B|----7b-7b-r-------7b-7b-7b-r--------7-10----7-----------|
G|7h9---------9-7h9------------9-7-9b------9b-----9b-r7-9b|
D|--------------------------------------------------------|
A|--------------------------------------------------------|
E|--------------------------------------------------------+ 

E|---7---------7----7-------------------------------------+
B|---7-10----7--------7----7-7----------------------------|
G|9b------9b-----9b-----9b-----9b-r-7-9-7-9b~~~-----------|
D|--------------------------------------------------------|
A|--------------------------------------------------------|
E|--------------------------------------------------------+ 

E|------------------------------10------------------------+
B|---------------10b-10-7-10/12----10-12-11-10-9~~~-------|
G|11b-r-11-9-7--------------------------------------------|
D|-------------9------------------------------------------|
A|--------------------------------------------------------|
E|--------------------------------------------------------+ 

E|--------------------17------------------15-16-17-/19----+
B|----12-15-17-15-17b----17r-15-17-15-17b-----------------|
G|14b-----------------------------------------------------|
D|--------------------------------------------------------|
A|--------------------------------------------------------|
E|--------------------------------------------------------+ 

E|--------------------17-17------------17-17--------------+
B|17b-r-15~~~-17--17b-------17r-15-17b-------17r-17b~~~---|
G|--------------------------------------------------------|
D|--------------------------------------------------------|
A|--------------------------------------------------------|
E|--------------------------------------------------------+ 

E|---------17b-----10-----10------------------------------+
B|17b-r-15-----13b----13b----------------11~~~------------|
G|---------------------------11\9\7-----------------------|
D|----------------------------------9-8-------------------|
A|--------------------------------------------------------|
E|--------------------------------------------------------+ 

E|12b-12-12-12-12-12-12r-12-12-12-12p10----12p12----------+
B|--------------------------------------12-------12~~~----|
G|--------------------------------------------------------|
D|--------------------------------------------------------|
A|--------------------------------------------------------|
E|--------------------------------------------------------+ 

E|------------------------7-------------------------------+
B|10-------------10---------7-10---7----------------------|
G|---11\9-7-9/11----\7-9b--------9---7-9---7--------------|
D|---------------------------------------9-----7----------|
A|-------------------------------------------9---9\7-5-7/9|
E|--------------------------------------------------------+ 

E|---------------------------------------------9----------+
B|--7---10p7--------------------7-8-7~~~-11-12------------|
G|----7------9b-r-7~~~-7-9~~~-9---------------------------|
D|7-------------------------------------------------------|
A|--------------------------------------------------------|
E|--------------------------------------------------------+ 

E|10-------10-------10-------10-------10------------------+
B|---12-------12-------12-------12-------12---------------|
G|------11-------11-------11-------11-------11------------|
D|--------------------------------------------------------|
A|--------------------------------------------------------|
E|--------------------------------------------------------+

E|9-------9-------9----12b--------------------------------+
B|--11------11------11------------------------------------|
G|-----11------11-----------------------------------------|
D|--------------------------------------------------------|
A|--------------------------------------------------------|
E|--------------------------------------------------------+ 

E|9-------9------9------9------9------7-----7-----7---10b-+
B|--10------10-----10-----10-----10-----9-----9-----9-----|
G|-----9-------9------9------9------9-----9-----9---------|
D|--------------------------------------------------------|
A|--------------------------------------------------------|
E|--------------------------------------------------------+ 
                                         Repeat and fade out
E|7-----7-----7-----7-----7-----5-----5-----5---8b--------+
B|--8-----8-----8-----8-----8-----7-----7-----7-----------|
G|----7-----7-----7-----7-----7-----7-----7---------------|
D|--------------------------------------------------------|
A|--------------------------------------------------------|
E|--------------------------------------------------------+



_______________________________________________________
Contribuição: Isaac(isaac.albuuerque@.bol.com.br)
Correção: Augusto Cézar (gokuson@ig.com.br)
Correção: Fernando Cesar Moreira (fecem@ig.com.br)

©2003 eagles.cifras.art.br - todos os direitos reservados